Dont think twice

(/) Slide Up  (\) Slide Down  (h) Hammer On  (p) Pull Off  (b) Bend (r) Release (v) Vibrato

E|-----------------------------0h0-----------------------------------------------------
B|-----------------1----------------------0-----------------------------1--------------
G|-----------0-----------0----------0-----------2--------2--------2-----------2-----2--
D|-----2--------2-----------0----------0-----------2--------2--------3-----------------
A|--3----------------------------------------0-----------------------------------------
E|--------3-----------3----------3--------------------3--------1-----------0-----1-----



E|-----------------------------0--1-----------------------------------
B|-----------------1-----------------------0-----------1-----------1--
G|-----------0-----------0-----------0-----------0-----------0--------
D|-----2--------2-----------0-----------0-----------2-----------2-----
A|--3-----------------------------------------3-----------------------
E|--------3-----------3-----------3-----------------------3-----------



E|-----------
B|-----------
G|-----------
D|--3--5--7--
A|-----------
E|-----------
http://www.guitartabcreator.com
Guitar Tab Creator is intended to store guitar tab created through the tool. It currently does not support in-line text editing. Any text you place in here will be lost. If you need to comment on your tab, please use the "Tab Notes" section located below.