Dont look back into the sun

(/) Slide Up  (\) Slide Down  (h) Hammer On  (p) Pull Off  (b) Bend (r) Release (v) Vibrato


E|-----------------------------------------------------------------------
B|--0--1--3--1--0--0--1--3--1--0--0--1--3--0--1--3--0--1--0--1--3--1--0--
G|-----------------------------------------------------------------------
D|-----------------------------------------------------------------------
A|-----------------------------------------------------------------------
E|-----------------------------------------------------------------------



E|-------3-------3--------5--3--2--3--2--3-----------------------------------
B|--3h5-----3h5-----5--3--------------------3--3--3--3--1--1--0--0-----------
G|------------------------------------------------------------------2--2--0--
D|---------------------------------------------------------------------------
A|---------------------------------------------------------------------------
E|---------------------------------------------------------------------------
http://www.guitartabcreator.com
Guitar Tab Creator is intended to store guitar tab created through the tool. It currently does not support in-line text editing. Any text you place in here will be lost. If you need to comment on your tab, please use the "Tab Notes" section located below.