Do I Wanna Know

(/) Slide Up  (\) Slide Down  (h) Hammer On  (p) Pull Off  (b) Bend (r) Release (v) Vibrato


E|--------------------------------------------------------------------
B|--------------------------------------------------------------------
G|--------------------------------------------------------------------
D|---------------------1h3--1--0-----------0--------------------------
A|-------1----------1-------------3--1--3-----3--1--1/3--3h5--3h5-----
E|--1h3-----3--1h3-------------------------------------------------3--



E|-----------------------------------------------------------------------------------
B|-----------------------------------------------------------------------------------
G|-----------------------------------------------------------------------------------
D|--5\1-----0--1--0-----------------0----------------5\1-----0--1--0-----------------
A|-------3-----------3--1--3--1--3-------------1----------3-----------3--1--3--------
E|-------------------------------------3--1h3-----3----------------------------3--3--
http://www.guitartabcreator.com
Guitar Tab Creator is intended to store guitar tab created through the tool. It currently does not support in-line text editing. Any text you place in here will be lost. If you need to comment on your tab, please use the "Tab Notes" section located below.