run a thousand miles

(/) Slide Up  (\) Slide Down  (h) Hammer On  (p) Pull Off  (b) Bend (r) Release (v) Vibrato

E|--------------------------------------------------------------------------
B|--------------------------------------------------------------------------
G|-------------------10---------------------------------7-------------------
D|-----10-----10------------10-----10-------7-----7-----------7-----7-------
A|---8------8------8------8------8----8---5-----5-----5-----5-----5---5-----
E|-8------8------8------8------8--------5-----5-----5-----5-----5-------5/--



E|-------|-------|-------|-------|-------------|-------------|-
B|-------|-------|-------|-------|-------------|-------------|-
G|-------|-------|-------|-------|-------------|-------------|-
D|-------|-------|-------|-------|-------------|-------------|-
A|-0-0-0-|-0-0-0-|-0-0-0-|-0-0-0-|-------------|-------------|-
E|-0-0-0-|-0-0-0-|-0-0-0-|-0-0-0-|-6-5-3-3-2-0-|-6-5-3-3-2-0-|-



E|--
B|--
G|--
D|--
A|--
E|--
http://www.guitartabcreator.com
Guitar Tab Creator is intended to store guitar tab created through the tool. It currently does not support in-line text editing. Any text you place in here will be lost. If you need to comment on your tab, please use the "Tab Notes" section located below.