Hard to Love

(/) Slide Up  (\) Slide Down  (h) Hammer On  (p) Pull Off  (b) Bend (r) Release (v) Vibrato

E|---------------------
B|---------------------
G|-10-------10---------
D|-x--7-8-0-x--7-8-3-0-
A|-8--7-8-0-8--7-8-3-0-
E|-0--7-8-0-0--7-8-3-0-



E|---10-11-8---------10-11-8---------10-11-8---------10-11-8----------10-11-8----------10-11-8---------
B|-8---------10-11-8---------10-11-----------10-11-----------10-11------------10-11------------10-11-8-
G|---------------------------------8---------------8---------------10---------------10-----------------
D|-----------------------------------------------------------------------------------------------------
A|-----------------------------------------------------------------------------------------------------
E|-----------------------------------------------------------------------------------------------------



E|-10-11---10-11----10-11-8---------10-11-8---10-11----10-11-8---------------8-10-11-15\3-
B|--------------------------10-11-8----------------------------10-11-8-10-11--------------
G|-------8-------10-------------------------8-------10------------------------------------
D|----------------------------------------------------------------------------------------
A|----------------------------------------------------------------------------------------
E|----------------------------------------------------------------------------------------



E|-
B|-
G|-
D|-
A|-
E|-



E|-------------------------------------------------------10--7--
B|----------------------------5--------------------------10--7--
G|----------------------------5--------------------------10--7--
D|----0--x--0--x--0--x--0--x--5--0--x--0--x--0--x--0--x--10--7--
A|----0--x--0--x--0--x--0--x--3--0--x--0--x--0--x--0--x--8---5--
E|----0--x--0--x--0--x--0--x--3--0--x--0--x--0--x--0--x--8---5--
http://www.guitartabcreator.com
Guitar Tab Creator is intended to store guitar tab created through the tool. It currently does not support in-line text editing. Any text you place in here will be lost. If you need to comment on your tab, please use the "Tab Notes" section located below.