Song 1 - 1st Guitar

(/) Slide Up  (\) Slide Down  (h) Hammer On  (p) Pull Off  (b) Bend (r) Release (v) Vibrato


E|--------------------------|--------------------------|----------------------------------|--
B|--------------------------|--------------------------|----------------------------------|--
G|--7--7--7--7--7--7--7--7--|--7--7--7--7--7--7--7--7--|--10--10--10--10--10--10--10--10--|--
D|--------------------------|--------------------------|----------------------------------|--
A|--5--5--5--5--5--5--5--5--|--5--5--5--5--5--5--5--5--|--8---8---8---8---8---8---8---8---|--
E|--------------------------|--------------------------|----------------------------------|--



E|--------------------------|--------------------------|--------------------------|--
B|--------------------------|--------------------------|--------------------------|--
G|--9--9--9--9--9--9--9--9--|--7--7--7--7--7--7--7--7--|--7--7--7--7--7--7--7--7--|--
D|--------------------------|--------------------------|--------------------------|--
A|--7--7--7--7--7--7--7--7--|--5--5--5--5--5--5--5--5--|--5--5--5--5--5--5--5--5--|--
E|--------------------------|--------------------------|--------------------------|--



E|--------------------------|--------------------------|----------------------------------|--
B|--------------------------|--------------------------|----------------------------------|--
G|--7--7--7--7--7--7--7--7--|--7--7--7--7--7--7--7--7--|--10--10--10--10--10--10--10--10--|--
D|--------------------------|--------------------------|----------------------------------|--
A|--5--5--5--5--5--5--5--5--|--5--5--5--5--5--5--5--5--|--8---8---8---8---8---8---8---8---|--
E|--------------------------|--------------------------|----------------------------------|--



E|----------------------------------|--------------------------|--------------------------|--
B|----------------------------------|--------------------------|--------------------------|--
G|--12--12--12--12--12--12--12--12--|--7--7--7--7--7--7--7--7--|--7--7--7--7--7--7--7--7--|--
D|----------------------------------|--------------------------|--------------------------|--
A|--10--10--10--10--10--10--10--10--|--5--5--5--5--5--5--5--5--|--5--5--5--5--5--5--5--5--|--
E|----------------------------------|--------------------------|--------------------------|--
http://www.guitartabcreator.com
Guitar Tab Creator is intended to store guitar tab created through the tool. It currently does not support in-line text editing. Any text you place in here will be lost. If you need to comment on your tab, please use the "Tab Notes" section located below.