Song1

(/) Slide Up  (\) Slide Down  (h) Hammer On  (p) Pull Off  (b) Bend (r) Release (x) Muted

[Intro]:
E|----------------------------------------------
B|----------------------------------------------
G|-9--------10-------12-------------------------
D|-11-(x16)-12-(x12)-10-(x4)--------------------
A|----------------------------------------------
E|----------------------------------------------
[Intro pt.2]:
E|-------------------------------------------------
B|-------------------------------------------------
G|-9--------10-------12----------------------------
D|-11-(x8)--12-(x8)--10-(x8)-----------------------
A|-0-----------------8-----------------------------
E|----------10*------------------------------------ *tip: generally use my thumb for this.
[Pre-Verse]:
E|--------------------------------------------------------------------------------
B|--------------------------------------------------------------------------------
G|---------------------------------------------------3-5-5-/-6-6---------6-6-6----
D|-2-2-2-x-------2-2-2---------3-3-3-x-------3-3-3-x-------------x-------------x--
A|-4-4-4-x-------4-4-4-x-------5-5-5-x-------5-5-5-x-1-3-3-/-4-4-x-------4-4-4-x--
E|---------6-5-3---------6-5-3---------6-5-3-----------------------6-5-3----------

E|---------------------------------------------------
B|---------------------------------------------------
G|-------7-7-7---------7-7-7-x-10b-10b-10b-----------
D|---------------------------------------------------
A|-------5-5-5---------5-5-5-x-8b--8b--8b------------
E|-6-5-3--------6-5-3--------------------------------

[Repeat above x2(ish) for verse and then play below on the final time to enter chorus.]

E|------------------------------------------------1-----1--1-----1-------
B|------------------------------------------------1-----1--1-----1-------
G|------------------------------------------------2-----2--2-----2-------
D|-2-2-2-x--------2-2-2-x--------2/3-3-3-3-3-3-3--3---3-3--3---3-3-------
A|-4-4-4-x--------4-4-4-x--------4/5-5-5-5-5-5-5--3-3-3-3--3-3-3-3-------
E|---------6-5-3----------6-5-3-------------------1-1-1----1-1-1---------

[then chorus]:

The chorus is basically just these chords
(Amaj) (Dmin) (Fmaj)
E|---5------5-----1--------------------------------
B|---5------6-----1--------------------------------
G|---6------7-----2--------------------------------
D|---7------7-----3--------------------------------
A|---7------5-----3--------------------------------
E|---5------5-----1--------------------------------



Guitar Tab Creator is intended to store guitar tab created through the tool. It currently does not support in-line text editing. Any text you place in here will be lost. If you need to comment on your tab, please use the "Tab Notes" section located below.