GUITAR INSTRUMENTAL

(/) Slide Up  (\) Slide Down  (h) Hammer On  (p) Pull Off  (b) Bend (r) Release (v) Vibrato
E|-12----------------------------------|----------------------------------------------------|-
B|----15-12----------------------------|----------------------------------------------------|-
G|----------14-14/14-12----12----12----|-------12-14-12----------12-14-12-------------12----|-
D|----------------------14----14----14-|-12-14----------14-12-14----------14-12-14-12----14-|-
A|-------------------------------------|----------------------------------------------------|-
E|-------------------------------------|----------------------------------------------------|-



E|----------------------------------------|-----------------------------------------|-
B|----------------------------------------|-12--------------------------------------|-
G|----------11----11-12-11-12-14-11-12-14-|----14-12-14-12-11-12-11----11-----------|-
D|-14-12-14----14-------------------------|-------------------------14----14-12-14v-|-
A|----------------------------------------|-----------------------------------------|-
E|----------------------------------------|-----------------------------------------|-



E|-15-12-------|-17-14-------|-19-15-------------------|-------------------|-
B|-------13----|-------15----|-------17----------------|-------------------|-
G|----------12-|----------14-|----------16-14-12-11-12-|-14-12-11-14/14/14/|-
D|-------------|-------------|-------------------------|-------------------|-
A|-------------|-------------|-------------------------|-------------------|-
E|-------------|-------------|-------------------------|-------------------|-



E|-15-12----------12-15-12----------12-17-14----------14-17-14----------14-|-
B|-------13----13----------13----13----------15----15----------15----15----|-
G|----------12----------------12----------------14----------------14-------|-
D|-------------------------------------------------------------------------|-
A|-------------------------------------------------------------------------|-
E|-------------------------------------------------------------------------|-



E|-19-15----------15-19-15----------15-19-15----------15-19-15----------15-|-
B|-------17----17----------17----17----------17----17----------17----17----|-
G|----------16----------------16----------------16----------------16-------|-
D|-------------------------------------------------------------------------|-
A|-------------------------------------------------------------------------|-
E|-------------------------------------------------------------------------|-



E|-17-14----------14-17-14----------14-15-12----------12-14-11----------11-|-
B|-------15----15----------15----15----------13----13----------12----12----|-
G|----------14----------------14----------------12----------------11-------|-
D|-------------------------------------------------------------------------|-
A|-------------------------------------------------------------------------|-
E|-------------------------------------------------------------------------|-



E|-15-12----------12-14-11----------11-15-12----15-12----15-12----15-12----|-
B|-------13----13----------12----12----------13-------13-------13-------13-|-
G|----------12----------------11-------------------------------------------|-
D|-------------------------------------------------------------------------|-
A|-------------------------------------------------------------------------|-
E|-------------------------------------------------------------------------|-



E|-17-14----17-14----17-14----17-14----19-15----19-15----19-15----19-15----|-
B|-------15-------15-------15-------15-------17-------17-------17-------17-|-
G|-------------------------------------------------------------------------|-
D|-------------------------------------------------------------------------|-
A|-------------------------------------------------------------------------|-
E|-------------------------------------------------------------------------|-



E|-19-15----19-15----19-15----19-15----17-14----17-14----17-14----17-14----|-
B|-------17-------17-------17-------17-------15-------15-------15-------15-|-
G|-------------------------------------------------------------------------|-
D|-------------------------------------------------------------------------|-
A|-------------------------------------------------------------------------|-
E|-------------------------------------------------------------------------|-



E|-15-12----15-12----14-11----14-11----15-12----------12-14-11----------11-|-
B|-------13-------13-------12-------12-------13----13----------12----12----|-
G|----------------------------------------------12----------------11-------|-
D|-------------------------------------------------------------------------|-
A|-------------------------------------------------------------------------|-
E|-------------------------------------------------------------------------|-



E|-12-12-14-15-14-12----|-------------------14-12v-|-------------------------------------|-
B|-------------------15-|-------------13-12--------|-------------------------------------|-
G|----------------------|-------11-14--------------|-14/14-12----14/14-12----14/14-12----|-
D|----------------------|-12-12--------------------|----------14----------12----------12-|-
A|----------------------|--------------------------|-------------------------------------|-
E|----------------------|--------------------------|-------------------------------------|-



E|-------------------------------------|----------------------|----------------------------|-
B|-------------------------------------|----------------------|----------------------------|-
G|-14/14-12----------------------------|----------------------|-14/14-12----------12-14/14-|-
D|-------------17----16-17-16-14-13-14-|----14-13-14-16-------|----------14----14----------|-
A|----------15----14-------------------|-14-------------15-14-|-------------14-------------|-
E|-------------------------------------|----------------------|----------------------------|-



E|-------------------------|-------------------------15-14-11----|-15-12-------------------12-15-|-
B|-------------------------|-------------------13-12----------12-|-------13-------------13-------|-
G|-14/14-12----------------|-------------12-11-------------------|----------12-------12----------|-
D|----------14-------------|-------14-13-------------------------|----------------14-------------|-
A|-------------15-14-13-14-|-15-14-------------------------------|-------------15----------------|-
E|-------------------------|-------------------------------------|-------------------------------|-



E|-17-14-------------------14-17-|-19-15-------------------|-------------------------|-
B|-------15-------------15-------|-------17----------------|-------------------13-12-|-
G|----------14-------14----------|----------16-14-12-11-12-|-14-14-12-11-12-11-------|-
D|----------------16-------------|-------------------------|-------------------------|-
A|-------------17----------------|-------------------------|-------------------------|-
E|-------------------------------|-------------------------|-------------------------|-



E|-15-12----------12-15-12----------12-17-14----------14-17-14----------14-|-
B|-------13----13----------13----13----------15----15----------15----15----|-
G|----------12----------------12----------------14----------------14-------|-
D|-------------------------------------------------------------------------|-
A|-------------------------------------------------------------------------|-
E|-------------------------------------------------------------------------|-



E|-19-15----------15-19-15----------15-19-15----------15-19-15----------15-|---
B|-------17----17----------17----17----------17----17----------17----17----|---
G|----------16----------------16----------------16----------------16-------|---
D|-------------------------------------------------------------------------|---
A|-------------------------------------------------------------------------|---
E|-------------------------------------------------------------------------|---



E|-17-14----------14-17-14----------14-15-12----------12-14-11----------11-|---
B|-------15----15----------15----15----------13----13----------12----12----|---
G|----------14----------------14----------------12----------------11-------|---
D|-------------------------------------------------------------------------|---
A|-------------------------------------------------------------------------|---
E|-------------------------------------------------------------------------|---



E|-15-12----------12-14-11----------11-15-12----15-12----15-12----15-12----|-
B|-------13----13----------12----12----------13-------13-------13-------13-|-
G|----------12----------------11-------------------------------------------|-
D|-------------------------------------------------------------------------|-
A|-------------------------------------------------------------------------|-
E|-------------------------------------------------------------------------|-



E|-17-14----17-14----17-14----17-14----19-15----19-15----19-15----19-15----|-
B|-------15-------15-------15-------15-------17-------17-------17-------17-|-
G|-------------------------------------------------------------------------|-
D|-------------------------------------------------------------------------|-
A|-------------------------------------------------------------------------|-
E|-------------------------------------------------------------------------|-



E|-20-15----19-15----17-15----19-15----17-14----17-14----17-14----17-14----|-
B|-------17-------17-------17-------17-------15-------15-------15-------15-|-
G|-------------------------------------------------------------------------|-
D|-------------------------------------------------------------------------|-
A|-------------------------------------------------------------------------|-
E|-------------------------------------------------------------------------|-



E|-15-12----15-12----14-11----14-11----15-12----------12-14-11----------11-|-12-|-
B|-------13-------13-------12-------12-------13----13----------12----12----|----|-
G|----------------------------------------------12----------------11-------|----|-
D|-------------------------------------------------------------------------|----|-
A|-------------------------------------------------------------------------|----|-
E|-------------------------------------------------------------------------|----|-



E|-------------------|----|----------------|----|-17-14----15-12----14-11----15-12----14-11----|-
B|-------------------|----|----------------|----|-------15-------13-------12-------13-------12-|-
G|----12----14----12-|----|-14/14/14/14-12-|----|----------------------------------------------|-
D|-14----14----14----|-14-|----------------|-14-|----------------------------------------------|-
A|-------------------|----|----------------|----|----------------------------------------------|-
E|-------------------|----|----------------|----|----------------------------------------------|-



E|-12-12-12-12-12-12-|-15-14----14-12----------|----------------------12-12-------|-
B|-------------------|-------15-------13-------|----12----13----15-12-------15-12-|-
G|-------------------|-------------------14-16-|-11----12----14-------------------|-
D|-------------------|-------------------------|----------------------------------|-
A|-------------------|-------------------------|----------------------------------|-
E|-------------------|-------------------------|----------------------------------|-



E|-------------------------------------------------|-15-14----14----------------------------------------
B|-15/15-15/15-15/15-15/15-15/15-15/15-15/15-15/15-|-------15----15----15-------------------------------
G|-------------------------------------------------|----------------14----14----14----------------------
D|-------------------------------------------------|-------------------------16----16-14-16-14-12-11-12-
A|-------------------------------------------------|----------------------------------------------------
E|-------------------------------------------------|----------------------------------------------------



E|----------------|---12-10-9-------|---10-8-7------|-----9-7-5-----|---5-|-
B|----------------|-----------12-10-|----------10-8-|-----------7---|-7---|-
G|----------12-11-|-9---------------|-7-------------|-7-6---------6-|-----|-
D|-14----14-------|-----------------|---------------|---------------|-----|-
A|----12----------|-----------------|---------------|---------------|-----|-
E|----------------|-----------------|---------------|---------------|-----|-



E|-9-5-------5-9-|-10-7---9-5---9-|-7-4---7-4---7-4---7-4---7-4---7-4---7-4---7-4---|-
B|-----7---7-----|------9-----7---|-----6-----6-----6-----6-----6-----6-----6-----6-|-
G|-------6-------|----------------|-------------------------------------------------|-
D|---------------|----------------|-------------------------------------------------|-
A|---------------|----------------|-------------------------------------------------|-
E|---------------|----------------|-------------------------------------------------|-



E|-5-2---5-2---5-2---5-2---5-2---5-2---5-2---5-2---|-4-1---4-1---4-1---4-1---4-1---4-1---4-1---4-1---|-
B|-----2-----2-----2-----2-----2-----2-----2-----2-|-----2-----2-----2-----2-----2-----2-----2-----2-|-
G|-------------------------------------------------|-------------------------------------------------|-
D|-------------------------------------------------|-------------------------------------------------|-
A|-------------------------------------------------|-------------------------------------------------|-
E|-------------------------------------------------|-------------------------------------------------|-



E|-5-2---5-2---5-2---5-2---5-2---5-2---5-2---5-2---|-7-4---7-4---7-4---7-4---7-4---7-4---7-4---7-4---|-
B|-----2-----2-----2-----2-----2-----2-----2-----2-|-----6-----6-----6-----6-----6-----6-----6-----6-|-
G|-------------------------------------------------|-------------------------------------------------|-
D|-------------------------------------------------|-------------------------------------------------|-
A|-------------------------------------------------|-------------------------------------------------|-
E|-------------------------------------------------|-------------------------------------------------|-



E|-9-5---9-5---9-5---9-5---9-5---9-5---9-5---9-5---|-10-7---10-7---9-5---9-5---7-4---7-4---9-5---9-5---|-
B|-----7-----7-----7-----7-----7-----7-----7-----7-|------9------9-----7-----7-----6-----6-----7-----7-|-
G|-------------------------------------------------|---------------------------------------------------|-
D|-------------------------------------------------|---------------------------------------------------|-
A|-------------------------------------------------|---------------------------------------------------|-
E|-------------------------------------------------|---------------------------------------------------|-



E|-10-7---10-7---10-7---10-7---14-11----14-11----12-9----12-9----|-12-9----12-9----12-9----12-9----|-
B|------9------9------9------9-------12-------12------10------10-|------10------10------10------10-|-
G|---------------------------------------------------------------|---------------------------------|-
D|---------------------------------------------------------------|---------------------------------|-
A|---------------------------------------------------------------|---------------------------------|-
E|---------------------------------------------------------------|---------------------------------|-



E|-14-11----14-11----12-9----12-9----12-9----12-9----12----12-9----|-14-11----14-11----14-11----14-11----14-11----------11-14-11----------11-|-
B|-------12-------12------10------10------10------10----10------10-|-------12-------12-------12-------12-------12----12----------12----12----|-
G|-----------------------------------------------------------------|----------------------------------------------11----------------11-------|-
D|-----------------------------------------------------------------|-------------------------------------------------------------------------|-
A|-----------------------------------------------------------------|-------------------------------------------------------------------------|-
E|-----------------------------------------------------------------|-------------------------------------------------------------------------|-



E|-14-11----15-12----14-11----15-12----14-11----15-12----14-11----15-12----|-12-14-15-14-12----|-
B|-------12-------13-------12-------13-------12-------13-------12-------13-|----------------15-|-
G|-------------------------------------------------------------------------|-------------------|-
D|-------------------------------------------------------------------------|-------------------|-
A|-------------------------------------------------------------------------|-------------------|-
E|-------------------------------------------------------------------------|-------------------|-



E|-------------------------------|-------------------|----------------------------------|-
B|----------------------12-13-12-|----------------12-|-12-------------------------------|-
G|-------11-14-11-12-14----------|-14-12-11-14-14----|----14-12-11-12-11----11----------|-
D|-12-12-------------------------|-------------------|-------------------14----14-12-12-|-
A|-------------------------------|-------------------|----------------------------------|-
E|-------------------------------|-------------------|----------------------------------|-



E|-------------------------|----------------|----------12----|-17/17/17/17/|-
B|-------------------------|----------------|----15-14-------|-------------|-
G|-------------------------|----12-11-14----|-------------14-|-------------|-
D|-14-12----12-------------|-------------12-|-12-------------|-------------|-
A|-------15----15-14-12----|----------------|----------------|-------------|-
E|----------------------15-|-15-------------|----------------|-------------|-



E|-15-12------------------|-17-14-------------------|-19-15----------------------------|---------------|-
B|-------13---------------|-------15----------------|-------17-------------------------|---------------|-
G|----------12------------|----------14-------------|----------16-12-------------------|---------------|-
D|-------------14---------|-------------16----------|----------------14----------------|---------------|-
A|----------------15------|----------------17-------|-------------------12-10----------|---------------|-
E|-------------------15-8-|-------------------17-10-|-------------------------12-5-3-0-|-5-5-5-5-5-6-7-|-



E|-15-12----------12-15-12----------12-17-14----------14-17-14----------14-|-
B|-------13----13----------13----13----------15----15----------15----15----|-
G|----------12----------------12----------------14----------------14-------|-
D|-------------------------------------------------------------------------|-
A|-------------------------------------------------------------------------|-
E|-------------------------------------------------------------------------|-



E|-19-15----------15-19-15----------15-19-15----------15-19-15----------15-|-
B|-------17----17----------17----17----------17----17----------17----17----|-
G|----------16----------------16----------------16----------------16-------|-
D|-------------------------------------------------------------------------|-
A|-------------------------------------------------------------------------|-
E|-------------------------------------------------------------------------|-



E|-17-14----------14-17-14----------14-15-12----------12-14-11----------11-|---
B|-------15----15----------15----15----------13----13----------12----12----|---
G|----------14----------------14----------------12----------------11-------|---
D|-------------------------------------------------------------------------|---
A|-------------------------------------------------------------------------|---
E|-------------------------------------------------------------------------|---



E|-15-12----------12-14-11----------11-15-12----15-12----15-12----15-12----|-
B|-------13----13----------12----12----------13-------13-------13-------13-|-
G|----------12----------------11-------------------------------------------|-
D|-------------------------------------------------------------------------|-
A|-------------------------------------------------------------------------|-
E|-------------------------------------------------------------------------|-



E|-17-14----17-14----17-14----17-14----19-15----19-15----19-15----19-15----|-
B|-------15-------15-------15-------15-------17-------17-------17-------17-|-
G|-------------------------------------------------------------------------|-
D|-------------------------------------------------------------------------|-
A|-------------------------------------------------------------------------|-
E|-------------------------------------------------------------------------|-



E|-20-15----19-15----17-15----19-15----17-14----17-14----17-14----17-14----|-
B|-------17-------17-------17-------17-------15-------15-------15-------15-|-
G|-------------------------------------------------------------------------|-
D|-------------------------------------------------------------------------|-
A|-------------------------------------------------------------------------|-
E|-------------------------------------------------------------------------|-



E|-15-12----15-12----14-11----14-11----15-12----15-12----14-11----14-11----|-
B|-------13-------13-------12-------12-------13-------13-------12-------12-|-
G|-------------------------------------------------------------------------|-
D|-------------------------------------------------------------------------|-
A|-------------------------------------------------------------------------|-
E|-------------------------------------------------------------------------|-



E|-17/17/17/17/17-15-12-12-|-17-14----17-14----17-14----17-14----15-12----15-12----14-11----14-11----|-
B|-------------------------|-------15-------15-------15-------15-------13-------13-------12-------12-|-
G|-------------------------|-------------------------------------------------------------------------|-
D|-------------------------|-------------------------------------------------------------------------|-
A|-------------------------|-------------------------------------------------------------------------|-
E|-------------------------|-------------------------------------------------------------------------|-



E|-15-12----15-12----14-11----14-11----17/17/17/17/17-15-|-12-12-17-14----------14-17-14----------14-|-
B|-------13-------13-------12-------12-------------------|-------------15----15----------15----15----|-
G|-------------------------------------------------------|----------------14----------------14-------|-
D|-------------------------------------------------------|-------------------------------------------|-
A|-------------------------------------------------------|-------------------------------------------|-
E|-------------------------------------------------------|-------------------------------------------|-



E|-15-12----------12-14-11----------11-15-12----------12-14-11----------11-|-
B|-------13----13----------12----12----------13----13----------12----12----|-
G|----------12----------------11----------------12----------------11-------|-
D|-------------------------------------------------------------------------|-
A|-------------------------------------------------------------------------|-
E|-------------------------------------------------------------------------|-



E|-12----------------------|----|----12-------------------|----------------------|----|-
B|----15-12----------------|----|-------15-12-------------|----------------------|----|-
G|----------14/14/14/14-12-|----|-------------14/14/14-12-|----12----------------|----|-
D|-------------------------|-14-|-14----------------------|-14----14-12-14-12----|----|-
A|-------------------------|----|-------------------------|-------------------14-|----|-
E|-------------------------|----|-------------------------|----------------------|-12-|-



E|---------------
B|---------------
G|---------------
D|---------------
A|---------------
E|-12-10-7-5-3-0-
http://www.guitartabcreator.com
Guitar Tab Creator is intended to store guitar tab created through the tool. It currently does not support in-line text editing. Any text you place in here will be lost. If you need to comment on your tab, please use the "Tab Notes" section located below.