Holy Is The Lord

(/) Slide Up  (\) Slide Down  (h) Hammer On  (p) Pull Off  (b) Bend (r) Release (v) Vibrato

E|--------------------------------------------------
B|--------------------------------------------------
G|--------0-----------0-----------0-----------0-----
D|-----0-----0-----0-----0-----4-----4-----4-----4--
A|--------------3-----------5-----------5-----------
E|--3-----------------------------------------------



E|--------------------------------------------------
B|--------------------------------------------------
G|--------0-----------0-----------7-----------7-----
D|-----5-----5-----2-----2-----4-----4-----4-----4--
A|--7-----------3-----------5-----------5-----------
E|--------------------------------------------------
http://www.guitartabcreator.com
Guitar Tab Creator is intended to store guitar tab created through the tool. It currently does not support in-line text editing. Any text you place in here will be lost. If you need to comment on your tab, please use the "Tab Notes" section located below.