Breathe - A

(/) Slide Up  (\) Slide Down  (h) Hammer On  (p) Pull Off  (b) Bend (r) Release (v) Vibrato


E|--------------------------------------
B|-----------------------------12-------
G|------------9------------9--------9---
D|-------11-------11---0----------------
A|---0----------------------------------
E|--------------------------------------



E|-------------------------------------------------------------------
B|-------------------------------------------------------------------
G|-----------2---------------4---------------2---------------1-------
D|-------2-------2-------2-------2-------2-------2-------2-------2---
A|---0---------------------------------------------------------------
E|-------------------4---------------2---------------0---------------



E|-------------------------------------------------------0---
B|-----------3---------------3-----------------------0-------
G|-------2-------2-------2-------2---------------1-----------
D|---0-----------------------------------2-------------------
A|-------------------------------------------2---------------
E|-------------------2---------------0-----------------------
http://www.guitartabcreator.com
Guitar Tab Creator is intended to store guitar tab created through the tool. It currently does not support in-line text editing. Any text you place in here will be lost. If you need to comment on your tab, please use the "Tab Notes" section located below.