Francisco Tarrega - Lagrima

(/) Slide Up  (\) Slide Down  (h) Hammer On  (p) Pull Off  (b) Bend (r) Release (v) Vibrato


E|--4-----5-----7-----2-----------------
B|-----0-----0-----0-----0-----0-----0--
G|--------------------------2-----------
D|--2-----4-----6-----1-----------------
A|--------------------------------2-----
E|--------------------------------------



E|--12-----11-----9-----7--------------5--4--------2--------0-----
B|-------------------7-----9-----5--7--------5--2--------4--------
G|------9------9--------------6-----------4-----3--------2--1-----
D|--11-----9------7-----9-----------------------------------2-----
A|----------------------------------------------------2-----------
E|-------------------------------------------------------------0--
http://www.guitartabcreator.com
Guitar Tab Creator is intended to store guitar tab created through the tool. It currently does not support in-line text editing. Any text you place in here will be lost. If you need to comment on your tab, please use the "Tab Notes" section located below.