Solsbury Hill

(/) Slide Up  (\) Slide Down  (h) Hammer On  (p) Pull Off  (b) Bend (r) Release (v) Vibrato


E|----------|--------------2--------------2--|--|--
B|-------2--|-----------5-----4-----5--4--2--|--|--
G|--3h4-----|--------4--------4-----4--4--3--|--|--
D|----------|-----4-----------4-----4--4--4--|--|--
A|----------|--2--------------2--2--------4--|--|--
E|----------|-----------------------------2--|--|--



E|-------------------|-------------------|---4---2---4---4---|-------------------|---|---
B|---4---2---4---4---|---4---2---4---4---|---4---2---4---4---|---4---2---4---4---|---|---
G|---4---3---4---4---|---4---3---4---4---|---4---3---4---4---|---4---3---4---4---|---|---
D|---4---4---4---4---|---4---4---4---4---|---6---4---6---6---|---4---4---4---4---|---|---
A|---2---2---2---2---|---2---2---2---2---|---6---4---6---6---|---2---2---2---2---|---|---
E|-------------------|-------------------|---4---2---4---4---|-------------------|---|---
http://www.guitartabcreator.com
Guitar Tab Creator is intended to store guitar tab created through the tool. It currently does not support in-line text editing. Any text you place in here will be lost. If you need to comment on your tab, please use the "Tab Notes" section located below.