Similar Notes on the First Springboard

(/) Slide Up  (\) Slide Down  (h) Hammer On  (p) Pull Off  (b) Bend (r) Release (v) Vibrato

E|------------------1------------------2-------------------3------------------4--
B|---------------6------------------7-------------------8------------------9-----
G|-----------10-----------------11------------------12------------------1--------
D|--------3------------------4-------------------5-------------------6-----------
A|-----8------------------9------------------10------------------11--------------
E|--1------------------2------------------3-------------------4------------------



E|-------------------5------------------6------------------7------------------8--
B|---------------10-----------------11-----------------12------------------1-----
G|------------2------------------3------------------4-------------------5--------
D|---------7------------------8------------------9------------------10-----------
A|-----12------------------1------------------2------------------3---------------
E|--5-------------------6------------------7------------------8------------------



E|------------------9-------------------10------------------11------------------12--
B|---------------2-------------------3-------------------4-------------------5------
G|------------6-------------------7-------------------8-------------------9---------
D|--------11------------------12-------------------1-------------------2------------
A|-----4-------------------5--------------------6-------------------7---------------
E|--9------------------10-------------------11------------------12------------------
http://www.guitartabcreator.com
Guitar Tab Creator is intended to store guitar tab created through the tool. It currently does not support in-line text editing. Any text you place in here will be lost. If you need to comment on your tab, please use the "Tab Notes" section located below.