Scale Patterns

(/) Slide Up  (\) Slide Down  (h) Hammer On  (p) Pull Off  (b) Bend (r) Release (v) Vibrato


E|--------------------------------0--3--------------------------------1--4--
B|--------------------------0--3--------------------------------1--4--------
G|--------------------0--2--------------------------------1--3--------------
D|--------------0--2--------------------------------1--3--------------------
A|--------0--2--------------------------------1--3--------------------------
E|--0--3--------------------------------1--4--------------------------------



E|--------------------------------3--5--------------------------------5--7--
B|--------------------------3--5--------------------------------5--7--------
G|--------------------2--4--------------------------------4--6--------------
D|--------------2--5--------------------------------4--7--------------------
A|--------2--5--------------------------------4--7--------------------------
E|--3--5--------------------------------5--7--------------------------------



E|--------------------------------5--7--
B|--------------------------5--8--------
G|--------------------4--7--------------
D|--------------5--7--------------------
A|--------5--7--------------------------
E|--5--7--------------------------------



E|-----------------------------------7--10--
B|----------------------------8--10---------
G|----------------------7--9----------------
D|----------------7--9----------------------
A|---------7--10----------------------------
E|--7--10-----------------------------------



E|----------------------------------------10--12--
B|--------------------------------10--12----------
G|-------------------------9--12------------------
D|------------------9--12-------------------------
A|----------10--12--------------------------------
E|--10--12----------------------------------------
http://www.guitartabcreator.com
Guitar Tab Creator is intended to store guitar tab created through the tool. It currently does not support in-line text editing. Any text you place in here will be lost. If you need to comment on your tab, please use the "Tab Notes" section located below.