Casey Jones (reggae cover)

(/) Slide Up  (\) Slide Down  (h) Hammer On  (p) Pull Off  (b) Bend (r) Release (v) Vibrato




Intro

G|-------------------------------------
D|--5/7--5-----------------------------
A|----------7/5--3-------------3h5--3--
E|------------------5--1--3/5----------



chorus

G|----------------------------------------------------
D|--------2-------------------------------3-----------
A|--3--3-----3--------3-----------3/5--3-----3--1--3--
E|--------------1--1-----1--1--1----------------------



verse

G|--------------------------------------------------
D|--------2-----------4-----------------------------
A|--3--3-----3--5--5-----5-----0--1--3--2--3--4--5--
E|--------------------------1-----------------------


rundown that goes in the chorus


G|--10--------------9-------------------------12--
D|------12--10---------12--10------10--12--9------
A|--------------12-------------12-----------------
E|------------------------------------------------



Outro

G|--------------------3-------------------------------
D|--------2-------------------------------3-----------
A|--3--3-----3--1--1--------------3/5--3-----3--1--3--
E|-----------------------1--1--1----------------------
http://www.guitartabcreator.com
Guitar Tab Creator is intended to store guitar tab created through the tool. It currently does not support in-line text editing. Any text you place in here will be lost. If you need to comment on your tab, please use the "Tab Notes" section located below.