Sacred Heart

(/) Slide Up  (\) Slide Down  (h) Hammer On  (p) Pull Off  (b) Bend (r) Release (v) Vibrato
E|--------------0--0--|--------0-----|--------2-----|-----------------------|--
B|--------3--------3--|-----3-----2--|--2--3-----2--|-----2-----2-----2--3--|--
G|-----2-----2--2--2--|--2-----2--2--|--0--0-----2--|--2-----2-----2--2--4--|--
D|--0-----------------|--------------|--0-----------|-----------------------|--
A|-----------------0--|-----------0--|--------------|-----------------------|--
E|--------------------|--------------|--3--------2--|-----------------3-----|--



E|--0--0--------------------|-----------0--|--------0-----|--2-----------0--|--
B|--------2-----2-----2-----|--2--3--3-----|-----3-----2--|--3-----3--------|--
G|--------2--2-----2-----2--|--2--4--------|--2-----------|--2--2-----2-----|--
D|--------------------------|--------------|--------------|--0--------------|--
A|--------0-----------------|--------0--0--|--------------|-----------------|--
E|--------------------------|--3--3--------|--------------|-----------------|--



E|--0--------0-----|-----2--------------------|-----------------|--0-----
B|--3-----3-----2--|--3-----2-----2-----2-----|--0--------0--2--|-----2--
G|--2--2--------2--|--4-----2--2-----2-----2--|--0-----0--------|--2-----
D|-----------------|--------------------------|--0--0-----------|--------
A|--0-----------0--|--------------------------|-----------------|-----0--
E|-----------------|--------2-----------------|-----------------|--------
http://www.guitartabcreator.com
Guitar Tab Creator is intended to store guitar tab created through the tool. It currently does not support in-line text editing. Any text you place in here will be lost. If you need to comment on your tab, please use the "Tab Notes" section located below.