The Artist

(/) Slide Up  (\) Slide Down  (h) Hammer On  (p) Pull Off  (b) Bend (r) Release (v) Vibrato


E|--2---------------------------------------------------------
B|--3--3-------3-----3-------3-----3-------3-------3----------
G|--------0h2-----2-------------------0h2---------------------
D|--0-------------------0h2-----2-------------0h2-----2/4--0--
A|------------------------------------------------------------
E|------------------------------------------------------------



E|--------------------------------------------------
B|--3-----------------------------------------------
G|--4--4-------4-----4-------4-------4-----0-----2--
D|--------2h4-----4-----2h4-----4/7-----4-----0-----
A|--2-----------------------------------------------
E|--------------------------------------------------



E|---------------------------------------------------
B|--3------------------------------------------------
G|--0--0-------0-------0----------0-------0----------
D|----------------0h2-----0----------0h2-----2/4--2--
A|--------0h2----------------0h2---------------------
E|--3------------------------------------------------



E|--2----------------------------------------------------------------2--
B|--3--3-------3-----3-----2-----------------------------------------3--
G|--------0h2-----2-----0--2--2-------2-----2-------2-------------------
D|--0----------------------------0h2-----2-----0h2-----2/7--5--4--2--0--
A|-------------------------0--------------------------------------------
E|----------------------------------------------------------------------
http://www.guitartabcreator.com
Guitar Tab Creator is intended to store guitar tab created through the tool. It currently does not support in-line text editing. Any text you place in here will be lost. If you need to comment on your tab, please use the "Tab Notes" section located below.