Song 1

(/) Slide Up  (\) Slide Down  (h) Hammer On  (p) Pull Off  (b) Bend (r) Release (v) Vibrato


E|-----------------------------------------------------------------
B|-----------------------------------------------------------------
G|--------11--12--11-----------------------14--15--14--------------
D|-----9--------------12--11--9--------12--------------15--14--12--
A|--9------------------------------12------------------------------
E|-----------------------------------------------------------------



E|------------------------------------------------------------
B|------------------------------------------------------------
G|--------9--10--9-------------------------------------13p12--
D|-----7------------10--9------10------12------13-------------
A|--7----------------------10------10------10------10---------
E|------------------------------------------------------------



E|--------------------------------------------------------------
B|--------------------------------------------------------------
G|--------------------------------------------------------------
D|--9----------------------------12-----------------------------
A|--9----------------------------12-----------------------------
E|--9----------------------------12-----------------------------



E|-----------------------------------------------
B|-----------------------------------------------
G|-----------------------------------------------
D|--7------------------------10-----12-------13--
A|--7------------------------10-----12-------13--
E|--7------------------------10-----12-------13--
http://www.guitartabcreator.com
Guitar Tab Creator is intended to store guitar tab created through the tool. It currently does not support in-line text editing. Any text you place in here will be lost. If you need to comment on your tab, please use the "Tab Notes" section located below.