David's Lullaby 21

(/) Slide Up  (\) Slide Down  (h) Hammer On  (p) Pull Off  (b) Bend (r) Release (v) Vibrato


E|--12--------12--12--------12--11--------11--11--------11--
B|------9-------------9-------------9-------------9---------
G|---------9-------------9-------------9-------------9------
D|--9-------------9-------------9-------------9-------------
A|----------------------------------------------------------
E|----------------------------------------------------------



E|--12--------12--12--------12--11--------11--11--------11-----
B|------9-------------9-------------9-------------9------------
G|---------9-------------9-------------9-------------9---------
D|--9-------------9-------------9-------------9----------------
A|-------------------------------------------------------------
E|-------------------------------------------------------------



E|--9--------9--9-----9--11--7--------7--7--------7--7--------7--7--------7-----7--
B|-----8-----------8------------6-----------6-----------6-----------6--------6-----
G|--------8------------------------6-----------6-----------6-----------6-----------
D|--8-----------8-----8--8---6-----------6-----------6-----------6--------------6--
A|---------------------------------------------------------------------------------
E|---------------------------------------------------------------------------------



E|--6-----7--9--------9--
B|-----4--------8--------
G|-----------------8-----
D|--4-----6--8--------8--
A|-----------------------
E|-----------------------
http://www.guitartabcreator.com
Guitar Tab Creator is intended to store guitar tab created through the tool. It currently does not support in-line text editing. Any text you place in here will be lost. If you need to comment on your tab, please use the "Tab Notes" section located below.