David's Lullaby

(/) Slide Up  (\) Slide Down  (h) Hammer On  (p) Pull Off  (b) Bend (r) Release (v) Vibrato

E|--15----------15--15----------15--14----------14--14----------14--
B|------12--------------12--------------12--------------12----------
G|----------12--------------12--------------12--------------12------
D|--12--------------12--------------12--------------12--------------
A|------------------------------------------------------------------
E|------------------------------------------------------------------



E|--15----------15--15----------15--14----------14--14----------14--
B|------12--------------12--------------12--------------12----------
G|----------12--------------12--------------12--------------12------
D|--12--------------12--------------12--------------12--------------
A|------------------------------------------------------------------
E|------------------------------------------------------------------



E|--12----------12--12------12--14--10--------10--10--------10-----
B|------11--------------11--------------9-------------9------------
G|----------11-----------------------------9-------------9---------
D|--11--------------11------11--11--9-------------9----------------
A|-----------------------------------------------------------------
E|-----------------------------------------------------------------



E|--10--------10--10--------10-----10--9-----10--12----------12--
B|------9-------------9---------9---------7----------11----------
G|---------9-------------9-------------------------------11------
D|--9-------------9--------------------7-----9---11--------------
A|---------------------------------------------------------------
E|---------------------------------------------------------------
http://www.guitartabcreator.com
Guitar Tab Creator is intended to store guitar tab created through the tool. It currently does not support in-line text editing. Any text you place in here will be lost. If you need to comment on your tab, please use the "Tab Notes" section located below.