Warm up (a)

(/) Slide Up  (\) Slide Down  (h) Hammer On  (p) Pull Off  (b) Bend (r) Release (v) Vibrato

E|---------------------1-2/2-3---------------------
B|-----------------1-2---------2-3-----------------
G|-------------1-2-----------------2-3-------------
D|---------1-2-------------------------2-3---------
A|-----1-2---------------------------------2-3-----
E|-1-2-----------------------------------------2-3/



E|---------------------3-4/4-5---------------------
B|-----------------3-4---------4-5-----------------
G|-------------3-4-----------------4-5-------------
D|---------3-4-------------------------4-5---------
A|-----3-4---------------------------------4-5-----
E|-3-4-----------------------------------------4-5/



E|---------------------5-6/6-7---------------------
B|-----------------5-6---------6-7-----------------
G|-------------5-6-----------------6-7-------------
D|---------5-6-------------------------6-7---------
A|-----5-6---------------------------------6-7-----
E|-5-6-----------------------------------------6-7/



E|---------------------7-8/8-9---------------------
B|-----------------7-8---------8-9-----------------
G|-------------7-8-----------------8-9-------------
D|---------7-8-------------------------8-9---------
A|-----7-8---------------------------------8-9-----
E|-7-8-----------------------------------------8-9/



E|--------------------------9-10/10-11-------------------------------
B|---------------------9-10------------10-11-------------------------
G|----------------9-10-----------------------10-11-------------------
D|-----------9-10----------------------------------10-11-------------
A|------9-10---------------------------------------------10-11-------
E|-9-10--------------------------------------------------------10-11/



E|------------------------------------------11--12/12--13------------------------------------------
B|----------------------------------11--12-----------------12--13----------------------------------
G|--------------------------11--12---------------------------------12--13--------------------------
D|------------------11--12-------------------------------------------------12--13------------------
A|----------11--12-----------------------------------------------------------------12--13----------
E|--11--12---------------------------------------------------------------------------------12--13--
http://www.guitartabcreator.com
Guitar Tab Creator is intended to store guitar tab created through the tool. It currently does not support in-line text editing. Any text you place in here will be lost. If you need to comment on your tab, please use the "Tab Notes" section located below.