Loser

(/) Slide Up  (\) Slide Down  (h) Hammer On  (p) Pull Off  (b) Bend (r) Release (v) Vibrato


E|-------------0--------------------0-----------------0--------------------0--------
B|----------------0-----------3--------3-----------------0-----------3--------3-----
G|-------3-----------3-----2-----2--------2-----3-----------3-----2-----2--------2--
D|----------4-----------0--------------------------4-----------0--------------------
A|----4--------------------------------------4--------------------------------------
E|----------------------------------------------------------------------------------



E|-------------0--------------------0-----------------0--------------------0-----------
B|----------------0-----------3--------3-----------------0-----------3--------3-----3--
G|-------3-----------3-----2-----2--------2-----3-----------3-----2-----2--------2-----
D|----------4-----------0--------------------------4-----------0-----------------------
A|----4--------------------------------------4-----------------------------------------
E|-------------------------------------------------------------------------------------



E|--
B|--
G|--
D|--
A|--
E|--
http://www.guitartabcreator.com
Guitar Tab Creator is intended to store guitar tab created through the tool. It currently does not support in-line text editing. Any text you place in here will be lost. If you need to comment on your tab, please use the "Tab Notes" section located below.