Spider Exercise v2

(/) Slide Up  (\) Slide Down  (h) Hammer On  (p) Pull Off  (b) Bend (r) Release (v) Vibrato


E|--5--6--------------7--8--5--6-----------------------------------------------------------------
B|--------7--8--5--6--------------7--8--5--6--------------7--8--5--6-----------------------------
G|--------------------------------------------7--8--5--6--------------7--8--5--6-----------------
D|--------------------------------------------------------------------------------7--8--5--6-----
A|-----------------------------------------------------------------------------------------------
E|-----------------------------------------------------------------------------------------------



E|-----------------------------------------------------------------------------------------
B|-----------------------------------------------------------------------------------------
G|--7--8--5--6-----------------------------------------------------------------------------
D|--------------7--8--5--6--------------7--8--5--6-----------------------------------------
A|--------------------------7--8--5--6--------------7--8--5--6--------------7--8--5--6-----
E|--------------------------------------------------------------7--8--5--6-----------------



E|-----------------------------------------------------------------------------------------
B|--------------------------------------------------------------------------7--8--5--6-----
G|--------------------------------------7--8--5--6--------------7--8--5--6-----------------
D|--7--8--5--6--------------7--8--5--6--------------7--8--5--6-----------------------------
A|--------------7--8--5--6-----------------------------------------------------------------
E|-----------------------------------------------------------------------------------------



E|--------------------------7--8--
B|--------------7--8--5--6--------
G|--7--8--5--6--------------------
D|--------------------------------
A|--------------------------------
E|--------------------------------
http://www.guitartabcreator.com
Guitar Tab Creator is intended to store guitar tab created through the tool. It currently does not support in-line text editing. Any text you place in here will be lost. If you need to comment on your tab, please use the "Tab Notes" section located below.