Two Places at One Time

(/) Slide Up  (\) Slide Down  (h) Hammer On  (p) Pull Off  (b) Bend (r) Release (v) Vibrato

E|--------------------------
B|--1--0--------0-----------
G|--------2--0--------2-----
D|-----------------0-----0--
A|--0-----------------------
E|--------------3-----------



E|--------------------------------------------------------------0-----------------------2--------
B|--0-----------3-----------------------3--------------------0-----0-----------------3-----3-----
G|--------0-----------0-----2-----2-----------2-----0-----0-----------0-----------4-----------4--
D|-----0-----0-----0-----0-----0-----0-----0-----0-----2-----------------4-----4-----------------
A|--------------------------------------------------------------------------2--------------------
E|--3-----------------------2-----------------------0--------------------------------------------
http://www.guitartabcreator.com
Guitar Tab Creator is intended to store guitar tab created through the tool. It currently does not support in-line text editing. Any text you place in here will be lost. If you need to comment on your tab, please use the "Tab Notes" section located below.