1st solo/intro

(/) Slide Up  (\) Slide Down  (h) Hammer On  (p) Pull Off  (b) Bend (r) Release (v) Vibrato


E|------------------14--15--14----------------------------------------------|-----
B|--15--17--15--17--------------17--15--15--16h16p--16--16--17h17p--17--15--|-----
G|--------------------------------------------------------------------------|-----
D|--------------------------------------------------------------------------|-----
A|--------------------------------------------------------------------------|-----
E|--------------------------------------------------------------------------|-----



E|--------------14--15--14--------------------------------------------------------------|--
B|--17--15--17--------------17--15--15--16h16p--16--16------17------------------15--17--|--
G|------------------------------------------------------16------16--12--15--16----------|--
D|--------------------------------------------------------------------------------------|--
A|--------------------------------------------------------------------------------------|--
E|--------------------------------------------------------------------------------------|--



E|--------------------------|--
B|--------------------------|--
G|--16--12--15--14--12------|--
D|----------------------14--|--
A|--------------------------|--
E|--------------------------|--
http://www.guitartabcreator.com
Guitar Tab Creator is intended to store guitar tab created through the tool. It currently does not support in-line text editing. Any text you place in here will be lost. If you need to comment on your tab, please use the "Tab Notes" section located below.