SARAH NOT MY TAB !

(/) Slide Up  (\) Slide Down  (h) Hammer On  (p) Pull Off  (b) Bend (r) Release (v) Vibrato



E|----------------------------------------------------
B|-----------------5--6--6--6--8--5--5--------------
G|-----5--7--7--7-----------------------7--5--5--7--
D|--7-----------------------------------------------
A|--------------------------------------------------
E|--------------------------------------------------



E|--------------------------------------------------
B|-----------------5--6--6--6--8--5--5--------------
G|-----5--7--7--7-----------------------7--5--5--7--
D|--7-----------------------------------------------
A|--------------------------------------------------
E|--------------------------------------------------



E|-----------------------------5--6--6--5-----5--
B|-----------------6--8--8--8--------------8-----
G|-----5--7--7--7--------------------------------
D|--7--------------------------------------------
A|-----------------------------------------------
E|-----------------------------------------------



E|--------------------5----------------------------------
B|--------5--6--6--8-------------------6--5--5--6-----5--
G|--7--7-------------------------7--7--------------7-----
D|-------------------------------------------------------
A|-------------------------------------------------------
E|-------------------------------------------------------



E|--------------------------5---------------6--------------------
B|--3--3--5--5--6--8-----------6--3------------6--3--------------
G|-----------------------------------2---------------3--2--3--2--
D|---------------------------------------------------------------
A|---------------------------------------------------------------
E|---------------------------------------------------------------



E|--5--5--5--5--6--5----------------------5--5--5--5--6--5-----------------
B|--------------------8--8--8--8--10------------------------6--6--5-----5--
G|-------------------------------------------------------------------8-----
D|-------------------------------------------------------------------------
A|-------------------------------------------------------------------------
E|-------------------------------------------------------------------------



E|--------5--6--5--5--5--5--3------3-----------------
B|--5---------------------------------6--5--6--5--3--
G|-----5---------------------------------------------
D|---------------------------------------------------
A|---------------------------------------------------
E|---------------------------------------------------



E|--------5--6--5--5--5--5--3------3-----------------
B|--5---------------------------------6--5--6--5--3--
G|-----5---------------------------------------------
D|---------------------------------------------------
A|---------------------------------------------------
E|---------------------------------------------------



E|--5--6--5--5--8--5--3------3-----------------
B|------------------------------6--5--6--5--3--
G|---------------------------------------------
D|---------------------------------------------
A|---------------------------------------------
E|---------------------------------------------



E|--5--6--5--5--8--5--3------3-----------------
B|------------------------------6--5--6--5--3--
G|---------------------------------------------
D|---------------------------------------------
A|---------------------------------------------
E|---------------------------------------------


http://www.guitartabcreator.com
Guitar Tab Creator is intended to store guitar tab created through the tool. It currently does not support in-line text editing. Any text you place in here will be lost. If you need to comment on your tab, please use the "Tab Notes" section located below.