InTheMoodForLove

(/) Slide Up  (\) Slide Down  (h) Hammer On  (p) Pull Off  (b) Bend (r) Release (v) Vibrato
E|-----------------
B|--------------0--
G|-----------0-----
D|--------4--------
A|-----3-----------
E|--0--------------



E|-----------------
B|--------------0--
G|-----------0-----
D|-----5-----------
A|--7--------------
E|--------0--------



E|-----------------
B|--------------0--
G|-----------0-----
D|--------0--------
A|-----9-----------
E|--7--------------



E|-----------------
B|--------------0--
G|-----------0-----
D|--------0--------
A|-----7-----------
E|--5--------------




E|-----------------
B|--------------0--
G|-----------0-----
D|--------0--------
A|-----5-----------
E|--3--------------



E|--
B|--
G|--
D|--
A|--
E|--



E|-----------------
B|--------------0--
G|-----------0-----
D|-----4-----------
A|--2--------------
E|--------0--------



E|--------------------0--
B|-----------------0-----
G|----------15-----------
D|------13---------------
A|--11-------------------
E|--------------0--------



E|--------------------0--
B|-----------------0-----
G|----------17-----------
D|------15---------------
A|--13-------------------
E|--------------0--------
http://www.guitartabcreator.com
Guitar Tab Creator is intended to store guitar tab created through the tool. It currently does not support in-line text editing. Any text you place in here will be lost. If you need to comment on your tab, please use the "Tab Notes" section located below.