Hotel California

(/) Slide Up  (\) Slide Down  (h) Hammer On  (p) Pull Off  (b) Bend (r) Release (v) Vibrato

E|--7--------------------7-----------------------9------------------------7---------------
B|--7-----------7--------------------------7-----------7-----------10--------10--------7--
G|--7-----7-----------7--------7--9-----9-----9-----9-----------9------9------------9-----
D|--9--9-----9-----9--------9--------8--------------------8--7----------------------------
A|-------------------------------------------------------------------------------7--------
E|----------------------------------------------------------------------------------------



E|------------------------7------------------------7--------------------
B|---------------7------------------------8---------------8-------------
G|---------7-----------7------------7-----------7-----------------7-----
D|------9-----9-----9------------9-----9-----9---------------7h9-----7--
A|--11-----------------------10-----------------------10----------------
E|----------------------------------------------------------------------



E|--10--------10-----------10------------------------------------7-----------------
B|------7------------7---------7---------7--------------8-----8--------8--------8--
G|---------7--------------------------------------7--------------------------------
D|----------------7-------------------7--------9-----9-----9--------9--------9-----
A|----------------------9-------------------7--------------------------------------
E|--------------------------------10--------------------------------------7--------



E|--------------------------7--7--------10-----------7--------------------------9-----------
B|--------------7--------7-----7--7---------7-----7--------7--------------7-----------7-----
G|--------9--9--------9--------7-----7---------7--------------7--9-----9-----9-----9--------
D|-----8-----------8-----------9------------------------9-----------8--------------------8--
A|--9---------------------------------------------------------------------------------------
E|------------------------------------------------------------------------------------------



E|---------------7-----------------------------7--------------7------------------------7---------
B|--------10--------10--------10--------7---------------7---------------------8---------------8--
G|-----9------9------------9---------9------------9--------9------------7-----------7------------
D|--7-------------------7----------------------------7---------------9-----9-----9---------------
A|--------------------------------7--------11--------------------10-----------------------10-----
E|-----------------------------------------------------------------------------------------------



E|-------------10--------10-----------10------------------7-----10-----10-----7-----------------
B|-----------------7------------7---------7---------7---------------8------8--------------------
G|-------7------------7--------------------------------------7----------------------7-----7--7--
D|--7h9-----7----------------7-------------------7-------------------------------9--------------
A|---------------------------------9-------------------7----------------------------------------
E|-------------------------------------------10----------------------------------------7--------



E|--------------------------7--
B|--------------7--------7-----
G|--------9--9--------9--------
D|-----8-----------8-----------
A|--9--------------------------
E|-----------------------------
http://www.guitartabcreator.com
Guitar Tab Creator is intended to store guitar tab created through the tool. It currently does not support in-line text editing. Any text you place in here will be lost. If you need to comment on your tab, please use the "Tab Notes" section located below.