dunya benim

(/) Slide Up  (\) Slide Down  (h) Hammer On  (p) Pull Off  (b) Bend (r) Release (v) Vibrato


E|--2--2--2--2--2--2--2--2--5--
B|--2--2--2--2--2--2--2--5--5--
G|--7--2--7--2--7--2--2--4--2--
D|--2--7--2--7--2--7--4--2--2--
A|--5--5--5--5--5--5--4--2--4--
E|--7--7--7--7--7--7--2--4--5--



E|--------------2--5--------
B|--------------3--5--------
G|--4--2--4--2--5--6--4--2--
D|--3--4--3--4--4--7--3--4--
A|--4--4--4--4--2--7--4--4--
E|-----2-----2-----5-----2--
http://www.guitartabcreator.com
Guitar Tab Creator is intended to store guitar tab created through the tool. It currently does not support in-line text editing. Any text you place in here will be lost. If you need to comment on your tab, please use the "Tab Notes" section located below.