Sabor A Mi ( Luis Miguel ) Intro v2

(/) Slide Up  (\) Slide Down  (h) Hammer On  (p) Pull Off  (b) Bend (r) Release (v) Vibrato
E|--------------------------10--11--13--11--10------13--11--10------13--11--13--
B|--------------10--11--13----------------------13--------------13--------------
G|--12--12--12------------------------------------------------------------------
D|------------------------------------------------------------------------------
A|------------------------------------------------------------------------------
E|------------------------------------------------------------------------------



E|--11--11h13r11--10--10------------------------------------------------------------------
B|------------------------13--13--11--13--10--11--13--10--11--13--10--11--13--10--11--13--
G|----------------------------------------------------------------------------------------
D|----------------------------------------------------------------------------------------
A|----------------------------------------------------------------------------------------
E|----------------------------------------------------------------------------------------



E|----------------------------------10h11r10----------10--------------------8--10--
B|------11--10--------------10--11------------11--13-------------8--10--11---------
G|--10----------12--11--12--------------------------------8--10--------------------
D|---------------------------------------------------------------------------------
A|---------------------------------------------------------------------------------
E|---------------------------------------------------------------------------------



E|--8--8-----------------------------------------------------------------------
B|--------11--11--10--10--8--10------8/10--10--------------------9/11\9--8--8--
G|-------------------------------10------------10--9--10--8--10----------------
D|-----------------------------------------------------------------------------
A|-----------------------------------------------------------------------------
E|-----------------------------------------------------------------------------
http://www.guitartabcreator.com
Guitar Tab Creator is intended to store guitar tab created through the tool. It currently does not support in-line text editing. Any text you place in here will be lost. If you need to comment on your tab, please use the "Tab Notes" section located below.