Sabor A Mi ( Luis Miguel )

(/) Slide Up  (\) Slide Down  (h) Hammer On  (p) Pull Off  (b) Bend (r) Release (v) Vibrato
E|-------------------8--10--11--13--11--10--8--13--11--10--8--13--11--13--
B|--8--8--8--10--11-------------------------------------------------------
G|------------------------------------------------------------------------
D|------------------------------------------------------------------------
A|------------------------------------------------------------------------
E|------------------------------------------------------------------------



E|--11--11h13h11--10--10--8--8--6--8--5--6--8--5--6--8--5--6--8--5--6--8-----
B|---------------------------------------------------------------------------
G|---------------------------------------------------------------------------
D|---------------------------------------------------------------------------
A|---------------------------------------------------------------------------
E|---------------------------------------------------------------------------



E|-------6--5-----------5--6--10h11h10--6--8--10----------------6--8--10--
B|--6----------8--7--8-----------------------------------8--10------------
G|------------------------------------------------8--10-------------------
D|------------------------------------------------------------------------
A|------------------------------------------------------------------------
E|------------------------------------------------------------------------



E|--8--8--6--6--5--5-----5-----------------------------------------------
B|--------------------8-----6--8/10--10--------------------9/10\9--8--8--
G|---------------------------------------10--9--10--8--10----------------
D|-----------------------------------------------------------------------
A|-----------------------------------------------------------------------
E|-----------------------------------------------------------------------
http://www.guitartabcreator.com
Guitar Tab Creator is intended to store guitar tab created through the tool. It currently does not support in-line text editing. Any text you place in here will be lost. If you need to comment on your tab, please use the "Tab Notes" section located below.