Kiev Island Party

(/) Slide Up  (\) Slide Down  (h) Hammer On  (p) Pull Off  (b) Bend (r) Release (v) Vibrato

Stave 1:

E|--------------------------------------------------------
B|--------------------------------------------------------
G|--------------------------------------------------------
D|--------2h3p2p0--3--------2h3p2p0--2--------2h3p2p0-----
A|-----------------------------------------------------3--
E|--3--3--------------3--3--------------3--3--------------

Stave 2:

E|----------------------------------------------------------------------------
B|----------------------------------------------------------------------------
G|----------------------------------------------------------5h7p5-------------
D|--------2h3p2p0--3--5--------------------2h3p2p0--2--5/7---------7--5\3-----
A|-----------------------0--3--4--5-------------------------------------------
E|--3--3-----------------------------3--3-------------------------------------

Stave 3:

E|--------------------------------------------------------------------
B|--------------------------------------------------------------------
G|--------2h3p2p0--3--5--------------------2h3p2p0--2-----------------
D|-----------------------0--3--4--5--------------------3--------------
A|--3--3-----------------------------3--3-----------------5--4--3--1--
E|--------------------------------------------------------------------

Stave 4:

E|----------------------------------
B|----------------------------------
G|----------------------------------
D|-------------------------------5--
A|---------------5--5--5--5h6h7-----
E|--3--3--5h6h7---------------------

http://www.guitartabcreator.com
Guitar Tab Creator is intended to store guitar tab created through the tool. It currently does not support in-line text editing. Any text you place in here will be lost. If you need to comment on your tab, please use the "Tab Notes" section located below.