SR7 arpeggios

(/) Slide Up  (\) Slide Down  (h) Hammer On  (p) Pull Off  (b) Bend (r) Release (v) Vibrato

E|----------12--15p12----------
B|------15-------------15------
G|--12---------------------12--
D|-----------------------------
A|-----------------------------
E|-----------------------------



E|----------12--15p12----------
B|------14-------------14------
G|--12---------------------12--
D|-----------------------------
A|-----------------------------
E|-----------------------------



E|----------12--15p12----------
B|------13-------------13------
G|--12---------------------12--
D|-----------------------------
A|-----------------------------
E|-----------------------------



E|----------12--15p12----------
B|------12-------------12------
G|--12---------------------12--
D|-----------------------------
A|-----------------------------
E|-----------------------------



E|----------12--15p12---------------
B|------11-------------11-----------
G|--12---------------------12-------
D|----------------------------------
A|----------------------------------
E|----------------------------------
http://www.guitartabcreator.com
Guitar Tab Creator is intended to store guitar tab created through the tool. It currently does not support in-line text editing. Any text you place in here will be lost. If you need to comment on your tab, please use the "Tab Notes" section located below.