Rawlings And Luciane Fly

(/) Slide Up  (\) Slide Down  (h) Hammer On  (p) Pull Off  (b) Bend (r) Release (v) Vibrato

E|-----------------------
B|-----8-----------------
G|--5-----4--4--5--5--8--
D|-----------------------
A|-----------------------
E|-----------------------



E|------15-------------------------
B|--13------12--12--13--13--15-----
G|---------------------------------
D|---------------------------------
A|---------------------------------
E|---------------------------------



E|----------13--12--10----------------------
B|--12--13--------------13--12--13--13--15--
G|------------------------------------------
D|------------------------------------------
A|------------------------------------------
E|------------------------------------------
http://www.guitartabcreator.com
Guitar Tab Creator is intended to store guitar tab created through the tool. It currently does not support in-line text editing. Any text you place in here will be lost. If you need to comment on your tab, please use the "Tab Notes" section located below.