Yoke

(/) Slide Up  (\) Slide Down  (h) Hammer On  (p) Pull Off  (b) Bend (r) Release (v) Vibrato

E|--
B|--
G|--
D|--
A|--
E|--



E|------------
B|------------
G|------------
D|--9---5--4--
A|--10--7--5--
E|--10--7--5--



E|--0-----0--0--
B|--0-----0--0--
G|--0-----0--2--
D|--2--4--2--2--
A|--2--5--3--0--
E|-----5--------



E|------
B|------
G|------
D|------
A|------
E|------
http://www.guitartabcreator.com
Guitar Tab Creator is intended to store guitar tab created through the tool. It currently does not support in-line text editing. Any text you place in here will be lost. If you need to comment on your tab, please use the "Tab Notes" section located below.