Werewolf Shame

(/) Slide Up  (\) Slide Down  (h) Hammer On  (p) Pull Off  (b) Bend (r) Release (v) Vibrato

E|----------------------------
B|----------------------------
G|----------------------------
D|--------9--9----------------
A|--7--7--------11--11--9--9--
E|----------------------------



E|--------------------------
B|--------------------------
G|--1--1--1--1--2--2--2--2--
D|--2--2--2--2--2--2--2--2--
A|--2--2--2--2--0--0--0--0--
E|--0--0--0--0--------------



E|--------------------------------------
B|--------------------------------------
G|--6--6--6--6--4--4--4--4--1--1--1--1--
D|--6--6--6--6--4--4--4--4--2--2--2--2--
A|--4--4--4--4--2--2--2--2--2--2--2--2--
E|--------------------------0--0--0--0--



E|-----------
B|-----------
G|--2--2--1--
D|--2--2--2--
A|--0--0--2--
E|--------0--



E|--------------
B|--------------
G|--1--1--2--2--
D|--2--2--2--2--
A|--2--2--0--0--
E|--0--0--------



E|------------
B|--10--9--7--
G|------------
D|------------
A|------------
E|------------
http://www.guitartabcreator.com
Guitar Tab Creator is intended to store guitar tab created through the tool. It currently does not support in-line text editing. Any text you place in here will be lost. If you need to comment on your tab, please use the "Tab Notes" section located below.