Suffer the Children, Come Unto Me

(/) Slide Up  (\) Slide Down  (h) Hammer On  (p) Pull Off  (b) Bend (r) Release (v) Vibrato


E|--------------7--7--5--5r
B|--------------7--7--5--5-
G|--9--9--9--9--8--8--6--6-
D|--9--9--9--9--9--9--7--7-
A|--7--7--7--7--9--9--7--7-
E|--------------7--7--5--5-



E|--7--7--5--5--7--7--9---9---5--5--
B|--7--7--5--5--7--7--9---9---5--5--
G|--8--8--6--6--8--8--10--10--6--6--
D|--9--9--7--7--9--9--11--11--7--7--
A|--9--9--7--7--9--9--11--11--7--7--
E|--7--7--5--5--7--7--9---9---5--5--
http://www.guitartabcreator.com
Guitar Tab Creator is intended to store guitar tab created through the tool. It currently does not support in-line text editing. Any text you place in here will be lost. If you need to comment on your tab, please use the "Tab Notes" section located below.