Soldier's Requiem

(/) Slide Up  (\) Slide Down  (h) Hammer On  (p) Pull Off  (b) Bend (r) Release (v) Vibrato


E|--------------
B|--------------
G|-----6-----7--
D|--7--6--4--7--
A|--7--4--4--5--
E|--5-----2-----



E|-----------------------------
B|-----------------------------
G|--4--4--4--4--4--4--4--4--2--
D|--4--4--4--4--4--4--4--4--2--
A|--2--2--2--2--2--2--2--2--0--
E|-----------------------------
http://www.guitartabcreator.com
Guitar Tab Creator is intended to store guitar tab created through the tool. It currently does not support in-line text editing. Any text you place in here will be lost. If you need to comment on your tab, please use the "Tab Notes" section located below.