Movin' Right Along

(/) Slide Up  (\) Slide Down  (h) Hammer On  (p) Pull Off  (b) Bend (r) Release (v) Vibrato

E|-------------------------------------
B|-------------------------------------
G|--6----------------------------------
D|--6----------------------5--5--4--2--
A|--4----------------------5--5--4--2--
E|-------------------------3--3--2--0--



E|-----------------------------------------------------
B|-----------------------------------------------------
G|--9--9--------------4--5--9--9--------------4--5-----
D|--9--9--7--7--4--4--4--5--9--9--7--7--4--4--4--5-----
A|--7--7--7--7--4--4--2--3--7--7--7--7--4--4--2--3-----
E|--------5--5--2--2--------------5--5--2--2-----------



E|------------------------------------------
B|------------------------------------------
G|--9--9--------------4--4------4--4--5--5--
D|--9--9--7--7--4--4--4--4------4--4--5--5--
A|--7--7--7--7--4--4--2--2------2--2--3--3--
E|--------5--5--2--2------------------------



E|---------------------------------------
B|---------------------------------------
G|--6--------------------------4------6--
D|--6--------------------------4------6--
A|--4--------------------------2------4--
E|---------------------------------------



E|-----------------------------------------
B|-----------------------------------------
G|--6--------------------------------------
D|--6--------------------------5--5--4--2--
A|--4--------------------------5--5--4--2--
E|-----------------------------3--3--2--0--



E|------------------------------
B|------------------------------
G|--9--9--9--9--11--11--13--13--
D|--9--9--9--9------------------
A|--7--7--7--7--9---9---11--11--
E|------------------------------
http://www.guitartabcreator.com
Guitar Tab Creator is intended to store guitar tab created through the tool. It currently does not support in-line text editing. Any text you place in here will be lost. If you need to comment on your tab, please use the "Tab Notes" section located below.