Lovely, Love My Family

(/) Slide Up  (\) Slide Down  (h) Hammer On  (p) Pull Off  (b) Bend (r) Release (v) Vibrato


E|--5--5--5--7--5--3--3--3--5--2--2--2--3--2--
B|--5--5--5--5--5--3--3--3--3--3--3--3--3--3--
G|--6--6--6--6--6--4--4--4--4--2--2--2--2--2--
D|--7--7--7--7--7--5--5--5--5-----------------
A|--------------------------------------------
E|--------------------------------------------



E|--------------------------------------------------
B|--------5-----------5-----------5-----------5-----
G|-----6-----6-----6-----6-----6-----6-----6-----6--
D|--7-----------7-----------7-----------7-----------
A|--------------------------------------------------
E|--------------------------------------------------
http://www.guitartabcreator.com
Guitar Tab Creator is intended to store guitar tab created through the tool. It currently does not support in-line text editing. Any text you place in here will be lost. If you need to comment on your tab, please use the "Tab Notes" section located below.