Another Disco Party? (dos)

(/) Slide Up  (\) Slide Down  (h) Hammer On  (p) Pull Off  (b) Bend (r) Release (v) Vibrato


E|--------------------------------------------------
B|--------------------------------------------------
G|-----0-----0-----0-----0--4-----4-----------------
D|--0--2--3--2--0--2--3--2--0--5--0--5--5--5--5-----
A|--3-----3-----3-----3--------0-----0--5--5--5-----
E|--------------------------------------3--3--3-----



E|-----------------------------------------
B|--3--3--3--3--8--8--8--8-----------------
G|--0--0--0--0--0--0--0--0-----------------
D|--0--0--0--0--0--0--0--0--5--5--3--3--5--
A|--3--3--3--3--8--8--8--8--5--5--3--3--5--
E|--------------------------3--3--1--1--3--



E|--------------------
B|--------------------
G|------------4b4-----
D|--2/3--3/5-------5--
A|--------------------
E|--------------------



E|--------------------------------------------
B|--------------------------------------------
G|--5--4--5--4-----5--4--5--4-----------------
D|--0--0--0--0--3--0--0--0--0--5--3--3--5--5--
A|--------------3--------------5--3--3--5--5--
E|--------------1--------------3--1--1--3--3--
http://www.guitartabcreator.com
Guitar Tab Creator is intended to store guitar tab created through the tool. It currently does not support in-line text editing. Any text you place in here will be lost. If you need to comment on your tab, please use the "Tab Notes" section located below.