Analisa Joy

(/) Slide Up  (\) Slide Down  (h) Hammer On  (p) Pull Off  (b) Bend (r) Release (v) Vibrato


E|---------------
B|---------------
G|--11--6--8--4--
D|--11--6--8--4--
A|--9---4--6--2--
E|---------------



E|--------------------
B|--------------------
G|--8--6--4--8--6--4--
D|--8--6--4--8--6--4--
A|--6--4--2--6--4--2--
E|--------------------



E|--------------
B|--------------
G|--------4-----
D|--6--2--4--4--
A|--6--2--2--4--
E|--4--0-----2--
http://www.guitartabcreator.com
Guitar Tab Creator is intended to store guitar tab created through the tool. It currently does not support in-line text editing. Any text you place in here will be lost. If you need to comment on your tab, please use the "Tab Notes" section located below.