'59 Sound (LEAD)

(/) Slide Up  (\) Slide Down  (h) Hammer On  (p) Pull Off  (b) Bend (r) Release (v) Vibrato

E|------------------------------
B|--11--13--15--13--6--6--6--6--
G|------------------------------
D|--8---10--12--10--3--3--3--3--
A|------------------------------
E|------------------------------



E|--------------------------------------------------
B|--------------------------------------------------
G|--------------------------------------------------
D|--5--5--5--5--5--5--5--5--7--7--7--7--8--8--8--8--
A|--------------------------------------------------
E|--------------------------------------------------



E|-------------------------------------------------------------
B|-------------------------------------------------------------
G|----------------------------------8--8------8--10--8------8--
D|--10--10--10--10--10--10--10--10--------10------------10-----
A|-------------------------------------------------------------
E|-------------------------------------------------------------



E|---------------------------------------------------------------------------------------------
B|---------------------------------------------------------------------------------------------
G|--15--15--15--15--15--15--14--14--14--14--15--15--15--15--17--17--17--17--15--15--15--15-----
D|---------------------------------------------------------------------------------------------
A|--13--13--13--13--13--13--12--12--12--12--13--13--13--13--15--15--15--15--13--13--13--13-----
E|---------------------------------------------------------------------------------------------



E|----------------------------------
B|----------------------------------
G|--10--10--10--10--10--10--10--10--
D|----------------------------------
A|--8---8---8---8---8---8---8---8---
E|----------------------------------
http://www.guitartabcreator.com
Guitar Tab Creator is intended to store guitar tab created through the tool. It currently does not support in-line text editing. Any text you place in here will be lost. If you need to comment on your tab, please use the "Tab Notes" section located below.