Narnia Theme - The Battle (Incomplete)

(/) Slide Up  (\) Slide Down  (h) Hammer On  (p) Pull Off  (b) Bend (r) Release (v) Vibrato
E|--------------------------------------------------------------------------------------0--
B|-----------------------------------------------------------------------------6--8--3-----
G|--------4----------0----------------------6--4--6--9--4----4--6--7--4--6--7--------------
D|--7--6-------7--6-------4--6--7--4--6--7-------------------------------------------------
A|-----------------------------------------------------------------------------------------
E|-----------------------------------------------------------------------------------------



E|--------------------------------------------------------------
B|--------------------------------------------------------------
G|--5--7--8----7--5--7--0----5--3--5--0-------------------------
D|---------------------------------------3----1-----------------
A|-----------------------------------------------5--6--3--1--3--
E|--------------------------------------------------------------
http://www.guitartabcreator.com
Guitar Tab Creator is intended to store guitar tab created through the tool. It currently does not support in-line text editing. Any text you place in here will be lost. If you need to comment on your tab, please use the "Tab Notes" section located below.