C major solo

(/) Slide Up  (\) Slide Down  (h) Hammer On  (p) Pull Off  (b) Bend (r) Release (v) Vibrato


E|----------5----------------|----------5----------5--------|----------5------------------------5--|--------------|-----
B|-------5-----8p5-----5-----|-------5-----8p5--5-----8\10--|-------5-----8p5-----5--6p5-----5-----|--------------|-----
G|--7b9-------------7-----5--|--7b9-------------------------|--7b9-------------7----------7--------|--7\9--7\9/5--|-----
D|---------------------------|------------------------------|--------------------------------------|--------------|-----
A|---------------------------|------------------------------|--------------------------------------|--------------|-----
E|---------------------------|------------------------------|--------------------------------------|--------------|-----



E|----------------------------|--------------------------------|-----------------------------------------------------
B|----------------------5-----|------------------------8\10/8--|--------------------------------8--10--10\13--13-----
G|----------------5--7-----5--|----------------5--7\9----------|-----------------------7--7--9-----------------------
D|----------5--7--------------|----------5--7------------------|----------5--5--7--10--------------------------------
A|--3--5\7--------------------|--3--5\7------------------------|--3--5\7---------------------------------------------
E|----------------------------|--------------------------------|-----------------------------------------------------



E|--8-------------------------|--
B|-----10--8------------------|--
G|------------9--7/5--7\9--5--|--
D|----------------------------|--
A|----------------------------|--
E|----------------------------|--
http://www.guitartabcreator.com
Guitar Tab Creator is intended to store guitar tab created through the tool. It currently does not support in-line text editing. Any text you place in here will be lost. If you need to comment on your tab, please use the "Tab Notes" section located below.