Strawberry Swing - Coldplay

(/) Slide Up  (\) Slide Down  (h) Hammer On  (p) Pull Off  (b) Bend (r) Release (v) Vibrato

CAPO 1st FRET

Intro: part 1; play fingering as if no capo

E|---------16--16--16--16\13--------------
B|--16/18---------------------13--16------
G|------------------------------------15--
D|----------------------------------------
A|----------------------------------------
E|----------------------------------------

Intro: part 2

E|--------------------------------
B|---------16--16\13--16--13------
G|--15/17---------------------15--
D|--------------------------------
A|--------------------------------
E|--------------------------------


Chorus:



Source(s): http://www.youtube.com/watch?v=wxnSuz8jxf8



http://www.guitartabcreator.com
Guitar Tab Creator is intended to store guitar tab created through the tool. It currently does not support in-line text editing. Any text you place in here will be lost. If you need to comment on your tab, please use the "Tab Notes" section located below.