The Funeral - Band of Horses

(/) Slide Up  (\) Slide Down  (h) Hammer On  (p) Pull Off  (b) Bend (r) Release (v) Vibrato


E|----------11------------6--------1-----------3-----
B|------13------13-----8--------3-----3-----4-----4--
G|--13--------------8--------3-----------5-----------
D|---------------------------------------------------
A|---------------------------------------------------
E|---------------------------------------------------



E|-----4-----6-----1-----3-----
B|-----4-----8-----3-----4-----
G|-----5-----8-----3-----5-----
D|-----6-----8-----3-----5-----
A|-----6-----6-----1-----3-----
E|-----4-----6-----1-----3-----
http://www.guitartabcreator.com
Guitar Tab Creator is intended to store guitar tab created through the tool. It currently does not support in-line text editing. Any text you place in here will be lost. If you need to comment on your tab, please use the "Tab Notes" section located below.