Dirty Paws - Of Monsters and Men

(/) Slide Up  (\) Slide Down  (h) Hammer On  (p) Pull Off  (b) Bend (r) Release (v) Vibrato

E|------------------------------------------------------------------------------
B|---------------------------------------------------------------1-----------1--
G|-----------2-----------0-------------0-----------0-----0h2-----------2--------
D|-----2-----------2-----------0h2-----------2--------3-------3-----3-----3-----
A|--0-----0-----0-----0-----3-------3-----3-----3-------------------------------
E|------------------------------------------------------------------------------



E|-----0-----0-----0-----0-----0-----0-----3-----
B|-----1-----3-----1-----1-----0-----1-----0-----
G|-----2-----0-----0-----0-----0-----2-----0-----
D|-----2-----0-----2-----2-----2-----2-----0-----
A|-----0-----2-----3-----3-----2-----0-----2-----
E|-----0-----0-----0-----0-----0-----0-----3-----
http://www.guitartabcreator.com
Guitar Tab Creator is intended to store guitar tab created through the tool. It currently does not support in-line text editing. Any text you place in here will be lost. If you need to comment on your tab, please use the "Tab Notes" section located below.