The Cave - Mumford and Sons

(/) Slide Up  (\) Slide Down  (h) Hammer On  (p) Pull Off  (b) Bend (r) Release (v) Vibrato


E|----------------------------------------------------
B|----------------------------------------------------
G|----------------------0-----------0-----------0-----
D|--3/4--2--0--------0-----0-----0-----0-----0-----0--
A|-------------0--2-----------2-----------0-----------
E|----------------------------------------------------



E|---------------------------------------0---0---
B|---------------------------------------0---0---
G|---------------0-----------0-----------1---0---
D|-----------3-----------0-------0-------0---0---
A|-------3-------------------------------2---0---
E|---3---------------0---------------0---0---0---



E|-----0-----0-----0-----0-----
B|-----0-----0-----0-----0-----
G|-----0-----5-----7-----8-----
D|-----0-----5-----7-----9-----
A|-----0-----5-----7-----9-----
E|-----0-----0-----0-----9-----
http://www.guitartabcreator.com
Guitar Tab Creator is intended to store guitar tab created through the tool. It currently does not support in-line text editing. Any text you place in here will be lost. If you need to comment on your tab, please use the "Tab Notes" section located below.