Joe Bonamassa - When the Fire Hits the Sea - Second Fast Lick

(/) Slide Up  (\) Slide Down  (h) Hammer On  (p) Pull Off  (b) Bend (r) Release (v) Vibrato

E|--17--16b17r16---------------------------12-----------------12--------------12---------------------
B|----------------17---------17--15b17v--------15--12--15b17------15--12--15------15--12------15-----
G|--------------------16\14---------------------------------------------------------------14---------
D|---------------------------------------------------------------------------------------------------
A|---------------------------------------------------------------------------------------------------
E|---------------------------------------------------------------------------------------------------



E|--------------------------------------------------------------------
B|--12------15--12----------------------------------------------------
G|------14----------14--12--------------------------------------------
D|--------------------------14--12------------------------------------
A|----------------------------------14\12v------10--------------------
E|--------------------------------------------------12v---------------
http://www.guitartabcreator.com
Guitar Tab Creator is intended to store guitar tab created through the tool. It currently does not support in-line text editing. Any text you place in here will be lost. If you need to comment on your tab, please use the "Tab Notes" section located below.